The Beatles I Want To Tell You (ver 2) chords

ionicons-v5-k ionicons-v5-j
a b c d e f g h i j k l m n o p q r s t u v w x y z 0-9
 
TabCrawler.ComT / The Beatles / I Want To Tell You (ver 2) log in ] [ register ]
TABCRAWLER Online Sheet Music & Lyrics Archive Member Votes: 0 / 5(0 votes)
TAB VIEWS for i want to tell you (ver 2) chords: 17

To to be able to download PDF tabs, rate, comment & submit guitar tabs, bass tabs, keyboard tab, lyrics and drum tab files you must LOGIN TO TABCRAWLER Online Guitar Tabs & Guitar Pro, Bass Tab, Drum Tabs Archive MEMBERS ONLY AREA.
[PRINT]
Did this chords for i want to tell you (ver 2) help you?
You must LOGIN to rate this chords.
Help us improve the tab & lyrics archive!

I Want To Tell You (ver 2) by The Beatles

---------------------------------------------------------------------------
                I Want to Tell You – The Beatles
---------------------------------------------------------------------------
Tabbed by: maguri
Tuning: Standard

The Beatles
I Want To Tell You (1966)
(Harrison)

From: "Revolver"


---------------------------------------------------------------------------
CHORDS

        E-A-D-G-B-E
A       x-0-2-2-2-0
B       x-2-4-4-4-2
E(b9)  (0-2)2-1-0-1
E      (0-2)2-1-0-0
Bm      x-2-4-4-3-2
Bdim7   x-2-3-1-3-1  or
        x-2(0)1-0-1
Asus4   x-0-2-2-3-0

---------------------------------------------------------------------------

INTRO / RIFF (first two bars only)
 [A]              [G/A]    [D/A]  [A]              [G/A]     [D/A]
  1 + 2 + 3 + 4 +  1 + 2 + 3 + 4 +  1 + 2 + 3 + 4 +  1 + 2 + 3 + 4 +
e|----------------|----------------|----------------|----------------|
B|----------------|----------------|----------------|----------------|
G|--2-0-----------|0---------------|--2-0-----------|0---------------|
D|--------2-------|--0-------4-0---|--------2-------|--0-------4-0---|
A|0-----0-------0-|----0---------0-|------0-------0-|----0---------0-|
E|----------------|----------------|----------------|----------------|
                  [triplets]                        [triplets]

 *E(b9)
  1 + 2 + 3 + 4 +  1 + 2 + 3 + 4 +  1 + 2 + 3 + 4 +  1 + 2 + 3 + 4 +
e|1-0-1-0-1-0-1-0-|----------------|----------------|----------------|
B|0-0-0-0-0-0-0-0-|----------------|----------------|----------------|
G|1-1-1-1-1-1-1-1-|-------%--------|--------%-------|--------%-------|
D|2-2-2-2-2-2-2-2-|----------------|----------------|----------------|
A(2)--------------|----------------|----------------|----------------|
E(0)--------------|----------------|----------------|----------------|



INTRO
| A | G/A D/A |
| A | G/A D/A |

A
  I want to tell you
A                        B  
  My head is filled with things to say
*E(b9)
  When you're here, all those words
             A              [G/A   D/A]
They seem to slip away
            [RIFF]

 
A
  When I get near you
A                    B
  The games begin to drag me down
*E(b9)
  It's alright, I'll make you maybe 
     A              [G/A   D/A]
Next time around
     [RIFF]


Bm         Bdim          A 
  But if I seem to act unkind
          B               Bm
It's only me, it's not my mind
Bdim        A      Asus4 [break]
 That is confusing things


A
  I want to tell you 
A                      B
  I feel hung up and I don't know why
*E(b9)
  I don't mind, I could wait forever
A              [G/A   D/A]
I've got time
[RIFF]


Bm            Bdim            A 
  Sometimes I wish I knew you well
             B                 Bm
Then I could speak my mind and tell you
Bdim         A    Asus4 [break]
 Maybe you'd understand.


A
  I want to tell you 
A                      B
  I feel hung up and I don't know why
*E(b9)
  I don't mind, I could wait forever
A              [G/A   D/A]
I've got time
[RIFF]

A              [G/A   D/A]
(no vocals)
[RIFF]

A              [G/A   D/A]
I've got time
[RIFF]
A              [G/A   D/A]
I've got time
[RIFF]

A              [G/A   D/A]
(no vocals)
 [RIFF]
(repeat and fade)

TAB AND LYRICS COMMENTS:

There is no comments for the i want to tell you (ver 2) chords sheet music yet. Please post one now!

© 2020 TabCrawler Online Guitar Tab and Music Lessons Archive