Misc Unsigned Band Dark Pits Theme Ukulele chords

ionicons-v5-k ionicons-v5-j
a b c d e f g h i j k l m n o p q r s t u v w x y z 0-9
 
TabCrawler.ComM / Misc Unsigned Band / Dark Pits Theme Ukulele log in ] [ register ]
TABCRAWLER Online Sheet Music & Lyrics Archive Member Votes: 0 / 5(0 votes)
TAB VIEWS for dark pits theme ukulele chords: 68

To to be able to download PDF tabs, rate, comment & submit guitar tabs, bass tabs, keyboard tab, lyrics and drum tab files you must LOGIN TO TABCRAWLER Online Guitar Tabs & Guitar Pro, Bass Tab, Drum Tabs Archive MEMBERS ONLY AREA.
[PRINT]
Did this chords for dark pits theme ukulele help you?
You must LOGIN to rate this chords.
Help us improve the tab & lyrics archive!

Dark Pits Theme Ukulele by Misc Unsigned Band

This is the first tab I have made, so i apologize if it is confusing. I know that the first part is correct,
but I am not completely sure about the second half. Also there are chords in the second half which are meant
to be played along with the melody.

This song was composed by Motoi Sakuraba

                                                           s                       
|------------------------|-------------|--------------------------|----------|
|------3-----------------|-------------|------3----------7--------|----------|
|-4-6-----6--2--4--------|--4----------|-4-6-----6--2--4----------|----------|
|-----------------(-)----|-(-)---------|--------------------------|----------|
                                                                  
|----------------------------------|--------------------------|
|------3----------7--5--3----------|-3--5--7---7--5--3--------|
|-4-6-----6--2--4----------6--4-6--|--------------------6-----|
|----------------------------------|--------------------------|
                                                        
|----------------------------------|------------------|
|------3----------7--5--3----------|------------------|
|-4-6-----6--2--4----------6--4--2-|-4--2--(--)-------|
|----------------------------------|------------------|
                                                                  
|----------------------------------|--------------------------|
|------3----------7--5--3----------|-3--5--7---7--5--3--------|
|-4-6-----6--2--4----------6--4-6--|--------------------6-----|
|----------------------------------|--------------------------|
                                                                 
|----------------------------------|---------------------------|
|------3----------7--5--3----------|--------------------3--5---|
|-4-6-----6--2--4----------6--4--2-|-4--2--(--)----4-6---------|
|----------------------------------|---------------------------|
                                  S                 s                        S                   
|------------------------|----------------|------------------|---------------------------------|
|----------------5-------|----3---------2-|-3-5----3/5-------|-------------5---3---------------|
|------------------------|----------3-4---|------------------|--------------------6--4-3-4-6---| 
|-9---9--7--5-4-----4--5-|-4----4---------|------4-------7---|-9--8--5--4----------------------| 
                                                                                                  s         
|------------------------|------------------------|---------------------------|---------------------------|
|------3-----------------|------3-----------------|------3----------7---------|------3----------5/7-------|
|-4-6-----6--2--4--4-----|-4-6-----6--2--4--4-----|-4-6-----6--2--4-----------|-4-6-----6--2--4-----------|
|-----------------(-)----|-----------------(-)----|---------------------------|---------------------------|


ABOVE THIS IS All CORRECT, I AM NOT 100% SURE ABOUT THE PARTS AFTER THIS.

                                                                                                 
|----------------------|-------------------|--------9----|-------------------------------------|
|----------------5-----|-------5-----------|------2------|-7-5--3-5--3-2---3-2-----------------|
|-------------7--6--7--|-6--7--6--7--6--4--|-3--4-3------|---------------4-----4-2-4-2------2--|
|-5--4--5-----4-----9--|-8--9-----9--8--5--|-4--5---4----|-----------------------------5--4----|
                                      s                              
|--------------------------------|---------------------------------|
|------5----------2-3-5----------|-(-)------(-)----5--3-2---2-3-5--|
|-------------2-4----------------|------------------------4--------|
|-5--4---4-5-------------4-5-5-4-|--4--8--4--4---4-----------------|
                                                                      
|------------------------------|------------------------------------|
|------(-)--5-------------5----|-5--3-2-5--3-2---3-5----5--3-2------|
|------------------------------|---------------4---------------3----|
|-5--4--4------4-5-7--5-4----4-|----------------------4-------------|
                                                                   
|-0-0-0-0-0-0--------|-----------|-0-0-0-0--0--------|-----------|
|-0-0-0-0-0-0----3-3-|-2---------|-0-0-0-0--0----3-3-|-2---------|
|--------------------|-----------|-------------------|-----------|
|-2-2-2-2-2-2--------|------4----|-2-2-2-2--2--------|------4----|
                                                                    
|-------------|----------------|-------------|--------------------|
|------3--5---|-6--------------|------3-5----|-6------6---5---3---|
|-4-----------|------------4-4-|-4-----------|--------------------|
|-----------4-|----------------|-----------4-|--------------------|
                                               s                                    
|-9--9--9---9--9--9----------|-------------|--------------------|-----------------|
|----------------------------|----------5--|-5----------------2-|-----------------|
|-7--7--7---7--7--7----------|-------------|--------------3-4---|-4----2----------|
|-9--9--9---9--9--9------5-5-|-5----5-4----|----4----4----------|--------5---4-5--|
                                                                                                
|-----(-)-------|--------------------------|------------------|-------------------------------|
|---------------|------5----------2-3-5----|----2--2-----3-5--|-----5---------(-)------5------|
|---6--6--3-4-6-|-------------2-4----------|------------------|-------------------------------|
|-4-------------|-5--4---4-5-------------4-|-4----------------|-5-4----7--5-4--4---5-4----4-4-|
                                                                                                             
|-----------------------------|-2-2-2-2-2-2-2-2-2-2-2-2-|-7-7-7-7-7-7-7-7-7-7-2-|-2-2-2-2-2-2-2-2-2-2-2-2--|
|-(-)-2--2---------3--------2-|-0-0-0-0-0-0-0-0-0-0-0-0-|-3-3-3-3-3-3-3-3-3-3-0-|-0-0-0-0-0-0-0-0-0-0-0-0--|
|-----------4-2-------4-2-4---|-------------------------|-----------------------|--------------------------|
|--4------------5-------------|-0-0-0-0-0-0-0-0-0-0-0-0-|-3-3-3-3-3-3-3-3-3-3-0-|-0-0-0-0-0-0-0-0-0-0-0-0--|
                                                                 S            
|-7-7-7-7-7-7-7-7-7-7-2-|----------------|------------------|---------------|
|-3-3-3-3-3-3-3-3-3-3-0-|---3-5---5------|-6--5--3----6--5--|-3------6-5-3--|
|-----------------------|-4--------------|------------------|---4-----------|
|-3-3-3-3-3-3-3-3-3-3-0-|----------------|---------4--------|------4--------|
                                                  
|---------------------------------|-2-2-2------*|
|----------6--3---------6-5-------|-0-0-0------*|
|---------------4-3-2-------4-3---|------------*|
|-9--8--4-------------4---------4-|-0-0-0------*|

TAB AND LYRICS COMMENTS:

There is no comments for the dark pits theme ukulele chords sheet music yet. Please post one now!

© 2020 TabCrawler Online Guitar Tab and Music Lessons Archive