Sondre Lerche Sleep On Needles (ver 2) chords

ionicons-v5-k ionicons-v5-j
a b c d e f g h i j k l m n o p q r s t u v w x y z 0-9
 
TabCrawler.ComS / Sondre Lerche / Sleep On Needles (ver 2) log in ] [ register ]
TABCRAWLER Online Sheet Music & Lyrics Archive Member Votes: 0 / 5(0 votes)
TAB VIEWS for sleep on needles (ver 2) chords: 31

To to be able to download PDF tabs, rate, comment & submit guitar tabs, bass tabs, keyboard tab, lyrics and drum tab files you must LOGIN TO TABCRAWLER Online Guitar Tabs & Guitar Pro, Bass Tab, Drum Tabs Archive MEMBERS ONLY AREA.
[PRINT]
Did this chords for sleep on needles (ver 2) help you?
You must LOGIN to rate this chords.
Help us improve the tab & lyrics archive!

Sleep On Needles (ver 2) by Sondre Lerche

Sleep on Needles
by Sondre Lerche
----------------
Tabbed by Charles Podkanski
Email/msn: [email protected]


Chords used:
------------

     A   D7M   D   Dm  F#5  Bm   Cm   C#m
E||-------5---------5---2----2----3----4----||
B||--5----7----7----6---2----3----4----5----||
G||--6----6----7----7---2----4----5----6----||
D||--7----7----7----7---4----4----5----6----||
A||--7----5----5----5---4----2----3----4----||
E||--5------------------2-------------------||

Or, if you don't like playing too many barre chords,
you may play the song with these:

     A   D7M   D   Dm  F#5  Bm   Cm   C#m
E||--0----2----2----1---2----2----3----4----||
B||--2----2----3----3---2----3----4----5----||
G||--2----2----2----2---2----4----5----6----||
D||--2----0----0----0---4----4----5----6----||
A||--0----0----0----0---4----2----3----4----||
E||---------------------2-------------------||


 A
Ask me anything you like
 A
I'll reveal everything
        D7M
I will treasure the truth
         A
You could know anything
 A
I am but a fool to play unaware of things
        D7M
If I'd treasured the truth
  A
I would tell it to you
  D         Dm      A            F#5
I'm coming down to tell you what I know
  Bm                    
To say what's real, to let you know
       D                   Dm
Where I have been and how I had to

 A       F#5
Sleep on needles
         Bm            D  Dm
You'll believe you are hard
 A       F#5
Sleep on needles
     Bm           D   Dm
And hear only the truth

Interlude: A D A D 

 A
Am I likely to succeed with the way things are?
  D7M
Judging by your smile
         A
You are holding something back
   A
I'm sleepless around midnight
   A
There's a change in the wind
      D7M                    A
The remembrance of things you used to hold back
  D         Dm     A                   F#5
I come around each time your notes are high
   Bm
To tear you down and drag you up
   D                         Dm
To let you know what's going on while I

 A       F#5
Sleep on needles
         Bm            D  Dm
You'll believe you are hard
 A       F#5
Sleep on needles
     Bm           D   Dm
And hear only the truth


Interlude: A D A D F#5 Bm Dm 

           A ? F#5 Bm Cm C#m Dm
                      fast   /


Outro 'solo':

E||-------------|-------------|--10-9-7----7-|--9-7-10----7-||
B||--10-9-7---7-|--10-9-7---7-|---------10---|---------10---||
G||---------9---|---------9---|--------------|--------------||
D||---------------------------------------------------------||
A||---------------------------------------------------------||
E||---------------------------------------------------------||

TAB AND LYRICS COMMENTS:

There is no comments for the sleep on needles (ver 2) chords sheet music yet. Please post one now!

© 2020 TabCrawler Online Guitar Tab and Music Lessons Archive