Palma Violets Girl You Couldnt Do Much Better On The Beach chords

ionicons-v5-k ionicons-v5-j
a b c d e f g h i j k l m n o p q r s t u v w x y z 0-9
 
TabCrawler.ComP / Palma Violets / Girl You Couldnt Do Much Better On The Beach log in ] [ register ]
TABCRAWLER Online Sheet Music & Lyrics Archive Member Votes: 0 / 5(0 votes)
TAB VIEWS for girl you couldnt do much better on the beach chords: 19

To to be able to download PDF tabs, rate, comment & submit guitar tabs, bass tabs, keyboard tab, lyrics and drum tab files you must LOGIN TO TABCRAWLER Online Guitar Tabs & Guitar Pro, Bass Tab, Drum Tabs Archive MEMBERS ONLY AREA.
[PRINT]
Did this chords for girl you couldnt do much better on the beach help you?
You must LOGIN to rate this chords.
Help us improve the tab & lyrics archive!

Girl You Couldnt Do Much Better On The Beach by Palma Violets

Intro: G (strum once)

e--------------------------------- ]
B--------------------------------- ]
G--------------------------------- ]
D--------------------------2--0--- ] X3 (on the 3rd time, play the open D string until lyrics start)
A-----------2---2-2--3--3--------- ]
E--3--3--3------------------------ ]

G                    C                      D
I was standing under palm trees waiting for you         (yeah)
G                    C                    D
You had a vulnerable heart and a smoking 42
C            D                G                C
You said I'd changed but I've always been this way
C              D
Maybe I was to blame?

e--------------------------------- ]
B--------------------------------- ]
G--------------------------------- ]
D--------------------------2--0--- ] X3 (on the 3rd time, play the open D string until lyrics start)
A-----------2---2-2--3--3--------- ]
E--3--3--3------------------------ ]

G            C                D
You were the youngest Mary of three            (three)
G                           C               D        
Shattered by the man and the pack of authority
C                           D
We'll probably burn out and fail
G                                 C
Well at least I was a marvellous failure
C                   D 
You'll be like the rest, a nonsensical benign success     (OH!)

e--------------------------------- ]
B--------------------------------- ]
G--------------------------------- ]
D--------------------------2--0--- ] X3 (on the 3rd time, play the open D string until lyrics start)
A-----------2---2-2--3--3--------- ]
E--3--3--3------------------------ ]

G
(Woah woah woah woah woah woah...)
          E
Woah woah woah, you said I've changed
G
(Woah woah woah woah woah woah...)
          E
Woah woah woah, you said I've changed

e--------------------------------------------------------------------------- ]
B--------------------------------------------------------------------------- ]
G--------------------------------------------------------------------------- ]
D----5-------------------5-------------------5-------------------5---------- ]
A-------7---5---5----7-------7---5---5---7-------7---5---5---7------7----5-- ]
E--------------------------------------------------------------------------- ]

G
(Woah woah woah woah woah woah...)
          E
Woah woah woah, you said I've changed
G
(Woah woah woah woah woah woah...)
          E
Woah woah woah
C            D                G                C
You said I'd changed but I've always been this way
C              D       
Maybe I was to blame

(Fade out)

TAB AND LYRICS COMMENTS:

There is no comments for the girl you couldnt do much better on the beach chords sheet music yet. Please post one now!

© 2020 TabCrawler Online Guitar Tab and Music Lessons Archive