Palma Violets Danger In The Club chords

ionicons-v5-k ionicons-v5-j
a b c d e f g h i j k l m n o p q r s t u v w x y z 0-9
 
TabCrawler.ComP / Palma Violets / Danger In The Club log in ] [ register ]
TABCRAWLER Online Sheet Music & Lyrics Archive Member Votes: 0 / 5(0 votes)
TAB VIEWS for danger in the club chords: 9

To to be able to download PDF tabs, rate, comment & submit guitar tabs, bass tabs, keyboard tab, lyrics and drum tab files you must LOGIN TO TABCRAWLER Online Guitar Tabs & Guitar Pro, Bass Tab, Drum Tabs Archive MEMBERS ONLY AREA.
[PRINT]
Did this chords for danger in the club help you?
You must LOGIN to rate this chords.
Help us improve the tab & lyrics archive!

Danger In The Club by Palma Violets

Tuning: Standard

Intro:

e|-------------------------------|
B|----7-7------------7-7---------|
G|---7-7-7/9-7--7---7-7-7/9------|
D|------------7------------7-7---|  x2
A|-------------------------------|
E|-------------------------------|

e|------------------------------------------------------------------|
B|---7-----------7--------------------------------------------------|
G|----7-9/14------7-9-------------5---------------------------------|
D|--------------------7-----575757-7------------57575757------------|
A|---------------------------------------3------------------3-------|
E|------------------------------------3-5-5-3------------3-5-5-3----|


Weight in my voice, such a man

Change the sound of a distant screaming

All the days that I loved before

Have I ever needed you

D    C   F    C
Give up, give up
D    C   F    C
Give up, give up
Am                         Am
But he's the danger in the club
Am                     Am G F E
He's the danger in the club

Where were you when I needed you???? pissed up slapper

All the days when it rained in my soul

All of those were fiending you for

D    C   F    C
Give up, give up
D    C   F    C
Give up, give up
Am                         Am
But he's the danger in the club
Am                     Am G F E
He's the danger in the club

D Am G
      Slow down, 
D Am G
      Don't jump
D Am G
      To conclusion, 
D Am G
      it's the thing

E  E  E  E

(Harmonica)
D C F C
D C F C
D C F C
D C F C

Am
"He's bad to the bone"  X8

Solo
e---------------------------------
B---------------------------------
G---------------------------------
D---------------------------------    X4
A-5/7-5-3-5-3-5-5/7-5-3-----------
E------------------------5--------

D    C   F    C
Give up, give up
D    C   F    C
Give up, give up
D    C   F    C
Give up, give up
D    C   F    C
Give up, give up

Am
We go outside
G                         C G F
I think it stopped raining

Outro
e----------------------------------
B------6-5-----8-5-----------------
G----7-------7---------------------
D--7-------5-----------------------  X4 (Bend the "3--2--3" up and down)
A--5-----------------3--2--3-------
E----------------------------------

TAB AND LYRICS COMMENTS:

There is no comments for the danger in the club chords sheet music yet. Please post one now!

© 2020 TabCrawler Online Guitar Tab and Music Lessons Archive