Jimi Hendrix All Along The Watchower Intro Ukulele chords

 
TabCrawler.ComJ / Jimi Hendrix / All Along The Watchower Intro Ukulele log in ] [ register ]
TABCRAWLER Online Sheet Music & Lyrics Archive Member Votes: 0 / 5(0 votes)
TAB VIEWS for all along the watchower intro ukulele chords: 104

To to be able to download PDF tabs, rate, comment & submit guitar tabs, bass tabs, keyboard tab, lyrics and drum tab files you must LOGIN TO TABCRAWLER Online Guitar Tabs & Guitar Pro, Bass Tab, Drum Tabs Archive MEMBERS ONLY AREA.
[PRINT]
Did this chords for all along the watchower intro ukulele help you?
You must LOGIN to rate this chords.
Help us improve the tab & lyrics archive!

All Along The Watchower Intro Ukulele by Jimi Hendrix

Jimi Hendrix - All Along the Watchtower - Ukulele Intro

     G   Am       G   F        G   Am       G   F
A-|--2-2-0-0-0-0--2-2-0-0-0-0--2-2-0-0-0-0--2-2-0--0--0----|
E-|--3-3-0-0-0-0--3-3-1-1-1-1--3-3-0-0-0-0--3-3-1--1--1/7--|
C-|--2-2-0-0-0-0--2-2-0-0-0-0--2-2-0-0-0-0--2-3-0--0--0----|
G-|--0-0-2-2-2-2--0-0-2-2-2-2--0-0-2-2-2-2--0-0-2--2--2----|

A-|--7-7-7-7--7-7-5--------------------------------------7--7--|
E-|-----------------7-5-5-5--5---5-5-7-5-7-7p5-----7p5---------|
C-|----------------------------7---------------7p4-----7-------|
G-|------------------------------------------------------------|

TAB AND LYRICS COMMENTS:

There is no comments for the all along the watchower intro ukulele chords sheet music yet. Please post one now!

© 2019 TabCrawler Online Guitar Tab and Music Lessons Archive