Jimi Hendrix Purple Haze Intro Ukulele chords

ionicons-v5-k ionicons-v5-j
a b c d e f g h i j k l m n o p q r s t u v w x y z 0-9
 
TabCrawler.ComJ / Jimi Hendrix / Purple Haze Intro Ukulele log in ] [ register ]
TABCRAWLER Online Sheet Music & Lyrics Archive Member Votes: 0 / 5(0 votes)
TAB VIEWS for purple haze intro ukulele chords: 59

To to be able to download PDF tabs, rate, comment & submit guitar tabs, bass tabs, keyboard tab, lyrics and drum tab files you must LOGIN TO TABCRAWLER Online Guitar Tabs & Guitar Pro, Bass Tab, Drum Tabs Archive MEMBERS ONLY AREA.
[PRINT]
Did this chords for purple haze intro ukulele help you?
You must LOGIN to rate this chords.
Help us improve the tab & lyrics archive!

Purple Haze Intro Ukulele by Jimi Hendrix

Purple Haze Intro Ukulele Tab:

Starting Tab:

A-|---6-6-6-6-----3----3---0----------3---3---0-----3-5-7/5-3--3---0---3-5-7/5-3/5-5--7-10-12p10h12-12|
E-|-------------3--------3---3/5----3-------3---3/5--------------3------------------------------------|
C-|--3-3-3-3--4-----2-------------4-----2----------------------------2--------------------------------|
G-|---------------------------------------------------------------------------------------------------|

Chords Before Verse After Tab (Listen to song for timimg due to different versions):

Choose Either-

     E   E7(4)       G   G5 A5
A-|--2-2-5-5-5-5-5-5-2-2-5-0-0-0-|
E-|--4-4-4-4-4-4-4-4-3-3-3-0-0-0-|
C-|--4-4-4-4-4-4-4-4-2-2-2-4-4-4-|
G-|--4-4-4-4-4-4-4-4-0-0-0-2-2-2-|

Or Simpler-

E, G, A

TAB AND LYRICS COMMENTS:

There is no comments for the purple haze intro ukulele chords sheet music yet. Please post one now!

© 2020 TabCrawler Online Guitar Tab and Music Lessons Archive