Hans Zimmer Davy Jones Theme Solo Ukulele chords

ionicons-v5-k ionicons-v5-j
a b c d e f g h i j k l m n o p q r s t u v w x y z 0-9
 
TabCrawler.ComH / Hans Zimmer / Davy Jones Theme Solo Ukulele log in ] [ register ]
TABCRAWLER Online Sheet Music & Lyrics Archive Member Votes: 0 / 5(0 votes)
TAB VIEWS for davy jones theme solo ukulele chords: 1041

To to be able to download PDF tabs, rate, comment & submit guitar tabs, bass tabs, keyboard tab, lyrics and drum tab files you must LOGIN TO TABCRAWLER Online Guitar Tabs & Guitar Pro, Bass Tab, Drum Tabs Archive MEMBERS ONLY AREA.
[PRINT]
Did this chords for davy jones theme solo ukulele help you?
You must LOGIN to rate this chords.
Help us improve the tab & lyrics archive!

Davy Jones Theme Solo Ukulele by Hans Zimmer

Title: Davy Jones
Artist: Hans Zimmer
Arranged by Andrey Moiseev (o2genum)


High-G Ukulele

A|------------|-------1----|-3-----6---4---|-3----------|-3-----4----|-6-----8---4---|
E|-1-----3----|-4----------|-1-------------|-1----------|-1----------|-3-------------|
C|-0----------|-5----------|---------------|------------|------------|-3-------------|
G|------------|------------|---------------|------------|------------|---------------|


A|-3-----1----|-3----------|-4-----6----|-3----------|-1-----4---3---|------------|
E|-1----------|-1----------|-1----------|-1-----4----|-3-------------|-4-----1----|
C|------------|------------|-1----------|------------|---------------|-5----------|
G|------------|------------|------------|------------|---------------|------------|


A|------------|------------|------------|------------|
E|-3----------|-------3----|-1----------|-1----------|
C|-0-----3----|-0----------|-0----------|------------|
G|------------|------------|------------|------------|



TAB AND LYRICS COMMENTS:

There is no comments for the davy jones theme solo ukulele chords sheet music yet. Please post one now!

© 2020 TabCrawler Online Guitar Tab and Music Lessons Archive