Misc Unsigned Bands Awetre - Swrsa Ukulele chords

 
TabCrawler.ComM / Misc Unsigned Bands / Awetre - Swrsa Ukulele log in ] [ register ]
TABCRAWLER Online Sheet Music & Lyrics Archive Member Votes: 0 / 5(0 votes)
TAB VIEWS for awetre - swrsa ukulele chords: 9

To to be able to download PDF tabs, rate, comment & submit guitar tabs, bass tabs, keyboard tab, lyrics and drum tab files you must LOGIN TO TABCRAWLER Online Guitar Tabs & Guitar Pro, Bass Tab, Drum Tabs Archive MEMBERS ONLY AREA.
[PRINT]
Did this chords for awetre - swrsa ukulele help you?
You must LOGIN to rate this chords.
Help us improve the tab & lyrics archive!

Awetre - Swrsa Ukulele by Misc Unsigned Bands

Verse 1:  Guitar 1                                                              (0.29 - 0.43)
--------   
           Dm                  Am
It takes a beaten up animal to put em all away
A#                     F 
Rushing me around and sending me astray
           Dm               Am
Don't you lie to me, yes we finally
      A#                     F
Got a handle on the doors we open and shut


--Guitar 2 comes in--

Dm                                Am                                            (0.44 - 0.57)
Packing up my suitcase, cause I'm going far away
    A#                         F
I'm going to a place where the credit cards
      Dm                    Am
Don't decline on me, yes we finally
      A#                     F
Got a handle on the doors we open and shut




--Guitar 1+2 Same as Intro--    + Ooh choir vocals                              (0.58 - 1.11)




Chorus:         Single strum slowly/lightly top 3 strings of chorus chords      (1.12 - 1.27)
-------         as it is quite soft and barely audible

Chorus Guitar
e|---------------------------------------------------|
B|--------3---3-------5---5-------5---5-6--5-8------|
G|--3/-5----5---5/-7----7---5/-7----7----------------|
D|---------------------------------------------------|
A|-----------------------------------------------X4--|
E|---------------------------------------------------|


  Gm   C     Am
She took her time
 Dm      Gm
Took my mind
    C       Am   Dm
But forget mine

 Gm     C        Am                                                             (1.28 - 1.40)
Me in my frame of mind
   Dm       Gm
We took our time
 C          Am   Dm
But she took mine



Intro Guit 1 + Slide solo 1                                                     (1.41 - 2.01)

e|--------------------------------------------------------------------------------------------|
B|--8---/---10----10-108--5/6------6--8/10----13-1310--5/6----6-65--31----5-5/65--6------|
G|--------------------------------------------------------------------------------------------|
D|--------------------------------------------------------------------------------------------|
A|--------------------------------------------------------------------------------------------|
E|--------------------------------------------------------------------------------------------|

e|---------------------------------|                                            (2.02 - 2.10)
B|--8---/---10-------13------6----|
G|---------------------------------|
D|---------------------------------|
A|---------------------------------|
E|---------------------------------|




Verse 2:                                                                        (2.11  - 2.24)
--------
       Dm                       Am
We're remotely secluded in this far away place
A#                            F
Heading to a land where everything is okay
            Dm            Am
Don't think suddenly that you and me
      A#                     F
Got a handle on the doors we open and close

        Dm                     Am
Can you take a little time ego balance your ways                                (2.25 - 2.39)
      A#                      F
Cause everything we do and we put on display
      Dm               Am
Maybe you and me are a little the same
   A#                     F
So what do you think of-a what we've made?




Chorus 2:                                                                       (2.40 - 2.54)   
---------       

Chorus Guitar
e|---------------------------------------------------|
B|--------3---3-------5---5-------5---5-6--5-8------|
G|--3/-5----5---5/-7----7---5/-7----7----------------|
D|---------------------------------------------------|
A|-----------------------------------------------X4--|
E|---------------------------------------------------|

  Gm   C     Am
She took her time
 Dm      Gm
Took my mind
    C       Am   Dm
But forget mine

 Gm     C        Am                                                             (2.55 - 3.07)
Me in my frame of mind
     Dm       Gm
We took our time
      C       Am         Dm
But she took mine

TAB AND LYRICS COMMENTS:

There is no comments for the awetre - swrsa ukulele chords sheet music yet. Please post one now!

© 2019 TabCrawler Online Guitar Tab and Music Lessons Archive