Los Tres Dejate Caer (ver 2) chords

ionicons-v5-k ionicons-v5-j
a b c d e f g h i j k l m n o p q r s t u v w x y z 0-9
 
TabCrawler.ComL / Los Tres / Dejate Caer (ver 2) log in ] [ register ]
TABCRAWLER Online Sheet Music & Lyrics Archive Member Votes: 0 / 5(0 votes)
TAB VIEWS for dejate caer (ver 2) chords: 48

To to be able to download PDF tabs, rate, comment & submit guitar tabs, bass tabs, keyboard tab, lyrics and drum tab files you must LOGIN TO TABCRAWLER Online Guitar Tabs & Guitar Pro, Bass Tab, Drum Tabs Archive MEMBERS ONLY AREA.
[PRINT]
Did this chords for dejate caer (ver 2) help you?
You must LOGIN to rate this chords.
Help us improve the tab & lyrics archive!

Dejate Caer (ver 2) by Los Tres

Bm
Dejate caer
         A
Dejate caer
     Em            F#
La tierra es al reves
    Em           C
La sangre es amarilla
     Bm
Dejate caer

     F#          Em
El viento ya no sopla
    F#           Em
La boca bien cerrada
  F#           Em
Amarrate los pies
  Dm    
Piensa en tu madre
   C       Bm
Y dejate caer

|--/10-10-10-10-10-9-9-9-/12-12-------/10-10-10-10-10-12-9-9-9-9-10-9---|
|-----------------------------------------------------------------------|
|-----------------------------------------------------------------------|
|-----------------------------------------------------------------------|
|-----------------------------------------------------------------------|
|-----------------------------------------------------------------------|


|----7-6-7-/9-----6-7-9-9/10--9-7--|--8-10--10/12--10-8------7-7--5-5---|
|----8-8-8--------8-8--------------|--8---------------------------------|
|----------------------------------|------------------------------------|
|----------------------------------|------------------------------------|
|----------------------------------|------------------------------------|
|----------------------------------|------------------------------------|


 -------------------------------|
 -8-8--7-7--5-5-----------------| 
 ----------------7-7--6-6----4--|
 -------------------------------|
 -------------------------------|
 -------------------------------|

Bm
Mira al cielo ceder 
               A
Y a la tierra despues
   Em           F#
Vuelve a creer 
    Em          C
La sangre es amarilla
   Bm
Dejate caer

  F#            Em
Las olas ya no mojan
  F#            Em
La ira de las rocas
  F#            Em
Amarrame otra vez
  Dm
Un beso a mi madre
  C       Bm
Y dejame caer

Cm - Fm - G  (x3)
Cm

Bm
Consuelame otra vez
                 A
Porque no pienso volver
 Em              F#
El suelo tiene sed
Em               C
La vida es imprecisa
Bm
Dejate caer

F#              Em
Las olas no demoran
F#              Em
A mi alma desertora
F#              Em
Explicalo muy bien
Dm
Se abre la tierra
 C            Bm
El suelo esta a mis pies.

Cm - Fm - G  (x3)
Cm

TAB AND LYRICS COMMENTS:

There is no comments for the dejate caer (ver 2) chords sheet music yet. Please post one now!

© 2020 TabCrawler Online Guitar Tab and Music Lessons Archive