Elvis Presley A Fool Such As I (ver 3) chords

ionicons-v5-k ionicons-v5-j
a b c d e f g h i j k l m n o p q r s t u v w x y z 0-9
 
TabCrawler.ComE / Elvis Presley / A Fool Such As I (ver 3) log in ] [ register ]
TABCRAWLER Online Sheet Music & Lyrics Archive Member Votes: 0 / 5(0 votes)
TAB VIEWS for a fool such as i (ver 3) chords: 174

To to be able to download PDF tabs, rate, comment & submit guitar tabs, bass tabs, keyboard tab, lyrics and drum tab files you must LOGIN TO TABCRAWLER Online Guitar Tabs & Guitar Pro, Bass Tab, Drum Tabs Archive MEMBERS ONLY AREA.
[PRINT]
Did this chords for a fool such as i (ver 3) help you?
You must LOGIN to rate this chords.
Help us improve the tab & lyrics archive!

A Fool Such As I (ver 3) by Elvis Presley

A fool such As I


D                 F#7
Pardon me, if I'm sentimental
G               D
When we say goodbye
D                               A 
Don't be angry with me should I cry
      D          F#7
I'm a fool but I love you dear
  G              D
Untill the day I die
                       A            D
Now and then there's a fool such as I 
        G                           D
Now and then there's a fool such as I am over you
    A                E
You taught me how to love
        A                   A7   
And now you say that we are through
      D              F#7
I'm a fool, but I    love you dear
  G              D
Untill the day I die
                       A            D
Now and then there's a fool such as I

SOLO
e----------------10----12----12 / 14-----------------12------10-------|
B-------------10------------------------14-----12---------------------|
G----9/11-------------------------------------------------------------|
D---------------------------------------------------------------------|
A---------------------------------------------------------------------|
E---------------------------------------------------------------------|

e---------------------------------------------------------------------|
B—10 / 12-------------------12-----10---------------10---12----12 /-14|
G-------------14-----11---------------------9 / 11--------------------|
D---------------------------------------------------------------------|
A---------------------------------------------------------------------|
E---------------------------------------------------------------------|

e--------------------------------------------19-----18-----17---------|
B--14-----14---------------------------------19-----18-----17---------|
G------------------14------11------8---------19-----18-----17---------|
D---------------------------------------------------------------------|
A---------------------------------------------------------------------|
E---------------------------------------------------------------------|

e----------------10----12----12 / 14-----------------12------10-------|
B-------------10------------------------14-----12---------------------|
G----9/11-------------------------------------------------------------|
D---------------------------------------------------------------------|
A---------------------------------------------------------------------|
E---------------------------------------------------------------------|





e---------------------------------------------------------------------|
B—10 / 12-------------------12-----10---------------10---12----12 /-14|
G-------------14-----11----------------------9 / 11-------------------|
D---------------------------------------------------------------------|
A---------------------------------------------------------------------|
E---------------------------------------------------------------------|

e---------------------------------------------------------------------|
B---14----------------------------------------------------------------|
G-------14-----11------14-----8---------------------------------------|
D---------------------------------------------------------------------|
A---------------------------------------------------------------------|
E---------------------------------------------------------------------|

G                           D
Now and then there's a fool such as I am over you
    A                E
You taught me how to love
        A                   A7
And now you say that we are through
       D              F#7
I'm a  fool, but I    love you dear
    G            D
Untill the day I die
                       A            D
Now and then there's a fool such as I

TAB AND LYRICS COMMENTS:

There is no comments for the a fool such as i (ver 3) chords sheet music yet. Please post one now!

© 2020 TabCrawler Online Guitar Tab and Music Lessons Archive