Whirr Sandy chords

ionicons-v5-k ionicons-v5-j
a b c d e f g h i j k l m n o p q r s t u v w x y z 0-9
 
TabCrawler.ComW / Whirr / Sandy log in ] [ register ]
TABCRAWLER Online Sheet Music & Lyrics Archive Member Votes: 0 / 5(0 votes)
TAB VIEWS for sandy chords: 19

To to be able to download PDF tabs, rate, comment & submit guitar tabs, bass tabs, keyboard tab, lyrics and drum tab files you must LOGIN TO TABCRAWLER Online Guitar Tabs & Guitar Pro, Bass Tab, Drum Tabs Archive MEMBERS ONLY AREA.
[PRINT]
Did this chords for sandy help you?
You must LOGIN to rate this chords.
Help us improve the tab & lyrics archive!

Sandy by Whirr

-------------------------------------------------------------------------------
                             Sandy - Whirr
-------------------------------------------------------------------------------
Tabbed by: mark


Tuning: standard


e|--x--x--x--
B|--3--2--x--
G|--2--2--1--
D|--0--0--2--
A|--2--2--0--
E|--x--x--x--


e|---0---0---
B|---0---0---
G|---2---2---
D|---0---2---
A|---2---0---
E|---0---0---


TAB AND LYRICS COMMENTS:

There is no comments for the sandy chords sheet music yet. Please post one now!

© 2020 TabCrawler Online Guitar Tab and Music Lessons Archive