V8 Trágico Siglo (ver 2) chords

ionicons-v5-k ionicons-v5-j
a b c d e f g h i j k l m n o p q r s t u v w x y z 0-9
 
TabCrawler.ComV / V8 / Trágico Siglo (ver 2) log in ] [ register ]
TABCRAWLER Online Sheet Music & Lyrics Archive Member Votes: 0 / 5(0 votes)
TAB VIEWS for trágico siglo (ver 2) chords: 161

To to be able to download PDF tabs, rate, comment & submit guitar tabs, bass tabs, keyboard tab, lyrics and drum tab files you must LOGIN TO TABCRAWLER Online Guitar Tabs & Guitar Pro, Bass Tab, Drum Tabs Archive MEMBERS ONLY AREA.
[PRINT]
Did this chords for trágico siglo (ver 2) help you?
You must LOGIN to rate this chords.
Help us improve the tab & lyrics archive!

Trágico Siglo (ver 2) by V8


G|---------------------------------------------------------------
D|---------------------------------------------------------------
A|-5--7----------5--7----------5--7----------5--7----------------
E|---------------------------------------------------------------
                                                                          
G|--------------------------------------------------------------------    |
D|--------------------------------------------------------------------    |
A|-5--3---3-3-3-3-3-3--3---3-3-3-3-3--5--3---3-3-3-3-3-3--0-----2-----    |
E|--------------------------------------------------------------------    |
                                                                          |
G|-----------------------------------                                     |
D|-2--2------------------------------                                     |
A|-----------3--3------2-2-2-2|2--2-2                                     |
E|--------3--------------------------                                     |
                                                                          Parte
G|---------------------------------------------------------------         |  A
D|-2--2-------------------------------------------------------5--         |
A|-----------3--3------2-2-2-2|3--2-2-2|3--2-2-2|3--2-2-2-2-2---0         |
E|--------3------------------------------------------------------         |
                                                                          |
             (3 vueltas)                                                  |
       ?Suscitando signos?                                                |
G|-----------------------------------|----------------------------------  |
D|-2-2-2-2-2-2-2-2-----------------5-|-2-2-2-2-2-2-2-2------------------  |
A|-----------------5---------3--2----|-----------------5---------3--2---  |
E|-----------------------------------|----------------------------------  |
                                                                          /

?guárdate limpio de engaños?           ?no quemes tu ser?                
G|---------------------------------9---------------------5--5----7--7-   |
D|-5-5-5-5-5-5-5-5-4-4-4-4-4-4-4/7----------5---4---------------------   |
A|----------------------------------7--7--7-----------3-------5-------   |
E|--------------------------------------------------------------------   |Parte
                                                                         |__B
?temes el pasado perder?               ?y no el espíritu del Señor?          |
G|---------------------------------9---------------------------------------  |
D|-5-5-5-5-5-5-5-5-4-4-4-4-4-4-4/7----------5---4---2---5--5--5--4----2----  |
A|----------------------------------7--7--7--------------------------------  |
E|-------------------------------------------------------------------------  |
                                                                             /
G|-------------------------------------------------
D|-------------------------------------------------
A|-5--7----------5--7----------5--7----------------
E|-------------------------------------------------

Repite parte A. Despues:


?cierra tus ojos a la evasión?         ?alejala de ti?
G|--------------12------------11----11---------------------5--5----7--7-
D|-----------12------------------11-----------5---4---------------------
A|-10--------10-----9-----------------7--7--7-----------3-------5-------
E|----------------------------------------------------------------------

?aunque simule en ayuda venir?         ?todo culmina en una ilusion?
G|---------------------------------9---------------------------------
D|-5-5-5-5-5-5-5-5-4-4-4-4-4-4-4/7----------5---4---2---5--5--5--4---
A|----------------------------------7--7--7--------------------------
E|-------------------------------------------------------------------

(durante el solo de guitarra)
G|------------------------------------------------------------------
D|-----------------------------------------------------7--7---5-----
A|-7-7-9-10|7-7-9-10|5--5---3--2---7-7-7|9|10|7-7----------------5--
E|------------------------------------------------8|7|5-------------

G|-------------------------------------------------------------------------
D|------------------------------------------------------7--7---7-----------
A|-7-7-9-10|7-7-9-10|5--5---3--2---7-7-7|9|10|7-7-7|9|10-------------5-----
E|----------------------------------------------------------------7------7-

?cierra tus ojos a la evasión?         ?alejala de ti?
G|----------------12-------9--7------9---------------------5--5----7--7-
D|-12-----------------------------7-----------5---4---------------------
A|-10----------10---9-----------------7--7--7-----------3-------5-------
E|----------------------------------------------------------------------

?aunque simule en ayuda venir?         ?todo culmina en una ilusion?
G|---------------------------------9---------------------------------------
D|-5-5-5-5-5-5-5-5-4-4-4-4-4-4-4/7----------5---4---2---5--5--5--4----2----
A|----------------------------------7--7--7--------------------------------
E|-------------------------------------------------------------------------

G|-------------------------------------------------
D|-------------------------------------------------
A|-5--7----------5--7----------5--7----------------
E|-------------------------------------------------

Repite parte A, B. Despues:

G|-------------
D|-------------
A|-5--7--------
E|-------------

El original de este tema esta un cuarto de semitono mas grave que la afinacion
comun (La 440).


    /: slide up (?arrastrar? hacia adelante)
x |x : tocar las dos notas consecutivamente rápido por Ej. 10|5


Trágico siglo (Iorio-Zamarbide-Roldan-Cenci)

Suscitando signos,
anuncian que han de venir
las huestes del cielo,
de los tiempos es el fin.

Guárdate limpio de engaños,
no quemes tu ser.

Un trágico siglo
quema conciencias aquí,
en tierra de ciegos
que no saben elegir.

Cierra tus ojos a la evasión,
aljala de ti.
Aunque simule en ayuda venir,
todo culmina en una ilusión.

Un gran sacrificio
en la cruz hizo por mí,
la sangre del Cristo
mi aflicción vino a cubrir.

Cierra tus ojos a la evasión,
aljala de ti.
Aunque simule en ayuda venir,
todo culmina en una ilusión.

TAB AND LYRICS COMMENTS:

There is no comments for the trágico siglo (ver 2) chords sheet music yet. Please post one now!

© 2020 TabCrawler Online Guitar Tab and Music Lessons Archive