V8 Trágico Siglo chords

ionicons-v5-k ionicons-v5-j
a b c d e f g h i j k l m n o p q r s t u v w x y z 0-9
 
TabCrawler.ComV / V8 / Trágico Siglo log in ] [ register ]
TABCRAWLER Online Sheet Music & Lyrics Archive Member Votes: 0 / 5(0 votes)
TAB VIEWS for trágico siglo chords: 182

To to be able to download PDF tabs, rate, comment & submit guitar tabs, bass tabs, keyboard tab, lyrics and drum tab files you must LOGIN TO TABCRAWLER Online Guitar Tabs & Guitar Pro, Bass Tab, Drum Tabs Archive MEMBERS ONLY AREA.
[PRINT]
Did this chords for trágico siglo help you?
You must LOGIN to rate this chords.
Help us improve the tab & lyrics archive!

Trágico Siglo by V8


e|----------------------------------------------|---|-------------------|
B|----------------------------------------------|---|-------------------|
G|-----------7----------------------------------|---|---7---------------|
D|---7-9---7---7-----------7-9---------10-------|7-9|-7---7-------------|
A|---5-7----------10-9-10--5-7--10-9-7----------|5-7|------10-9-7-5-7---|
E|-------------------------------------10-8-7---|---|-------------------|
                                                                              
e|---------|---------------------|
B|---------|---------------------|
G|---------|---------------------|
D|---2-4---|---9---5-5--4--5-4---|
A|---0-2---|---7-5-3-4--2--3-2---|
E|---------|-----3---------------|
                                                                              
E5         D5 
Suscitando signos,
E5         D5
anuncian que han de venir

E5           D5
las huestes del cielo,

E5         D5  
de los tiempos es el fin.


G5                  F#/D5    
Guárdate limpio de engaños,

E5         C5   D5
no quemes tu ser.

G5        F#/D5 
Temes el pasado perder,

E5          C5     D5      
y no el espíritu del señor.  

 

Intro


Un trágico siglo

quema conciencias aquí 

en tierra de ciegos

que no saben elegir.

 

Cierra tus ojos a la evasión

aljala de ti.

Aunque simule en ayuda venir,

todo culmina en ilusión.


SOLO

 

Cierra tus ojos a la evasión

aljala de ti.

Aunque simule en ayuda venir,

todo culmina en ilusión.


Un gran sacrificio

en la cruz hizo por mí,

la sangre del Cristo 

mi aflicción vino a cubrir.

 

Cierra tus ojos a la evasión

aljala de ti.

Aunque simule en ayuda venir,

todo culmina en ilusión.

TAB AND LYRICS COMMENTS:

There is no comments for the trágico siglo chords sheet music yet. Please post one now!

© 2020 TabCrawler Online Guitar Tab and Music Lessons Archive