Fewjar Polemonium (ver 2) chords

ionicons-v5-k ionicons-v5-j
a b c d e f g h i j k l m n o p q r s t u v w x y z 0-9
 
TabCrawler.ComF / Fewjar / Polemonium (ver 2) log in ] [ register ]
TABCRAWLER Online Sheet Music & Lyrics Archive Member Votes: 0 / 5(0 votes)
TAB VIEWS for polemonium (ver 2) chords: 15

To to be able to download PDF tabs, rate, comment & submit guitar tabs, bass tabs, keyboard tab, lyrics and drum tab files you must LOGIN TO TABCRAWLER Online Guitar Tabs & Guitar Pro, Bass Tab, Drum Tabs Archive MEMBERS ONLY AREA.
[PRINT]
Did this chords for polemonium (ver 2) help you?
You must LOGIN to rate this chords.
Help us improve the tab & lyrics archive!

Polemonium (ver 2) by Fewjar

Fewjar - Polemonium

INTRO:

  Asus4  A6sus4   Asus2  C/G   D/A   Dadd4/A
|-3------1--------0------------0------0-
|-3------3--------0------0-----0------3-
|-2------3--------2------0-----2------0-
|-1------2--------2------2-----4------4-
|-0------0--------0------3-----5------5-
|------------------------3-----5------5-


VERSE:

  Em     Emadd9   Em    C/G   D/A   Dadd4/A
|-0------2--------0------------0------0-
|-0------0--------0------0-----0------3-
|-0------0--------0------0-----2------0-
|-2------2--------2------2-----4------4-
|-2------2--------2------3-----5------5-
|-0------0--------0------3-----5------5-

TRANSITION TO CHROUS (only one Chord):

  Gm 
|-3-
|-3-
|-3-
|-5-
|-5-
|-3-

CHORUS:

  Bm/F#  Em       F#m    G     F#m   F#m6
|-2---------------2------3-----2-----2---
|-3p2----0--------2------3-----2-----3p2-
|-4------0--------2------4-----2-----2---
|-4------2--------4------5-----4-----4---
|-2------2--------4------5-----4-----4---
|-2------0--------2------3-----2-----2---

PART AFTER CHORUS:

  E  C/G
|-0--0--
|-0--0--
|-1--0--
|-2--2--
|-2--3--
|-0--3--

TAB AND LYRICS COMMENTS:

There is no comments for the polemonium (ver 2) chords sheet music yet. Please post one now!

© 2020 TabCrawler Online Guitar Tab and Music Lessons Archive