Enrique Iglesias Quiero Ser Tu Héroe chords

 
TabCrawler.ComE / Enrique Iglesias / Quiero Ser Tu Héroe log in ] [ register ]
TABCRAWLER Online Sheet Music & Lyrics Archive Member Votes: 0 / 5(0 votes)
TAB VIEWS for quiero ser tu héroe chords: 22

To to be able to download PDF tabs, rate, comment & submit guitar tabs, bass tabs, keyboard tab, lyrics and drum tab files you must LOGIN TO TABCRAWLER Online Guitar Tabs & Guitar Pro, Bass Tab, Drum Tabs Archive MEMBERS ONLY AREA.
[PRINT]
Did this chords for quiero ser tu héroe help you?
You must LOGIN to rate this chords.
Help us improve the tab & lyrics archive!

Quiero Ser Tu Héroe by Enrique Iglesias

una versión mejorada con su tablatura del solo


intro G Em C D

G
Si una vez
          Em
Yo pudiera llegar
C
A erizar
           D
De frió tu piel

G
A quemar
              Em
Que se yo tu boca
C
Y morirme
         D
Allí despus

G
Y si entonces
              Em
Temblaras  por E

C                     D
Y lloraras al verme sufrir

          G
ahy sin dudar

             Em
Tu vida entera dar
 C         D     G
Como yo la di por ti


Coro:

G          D       C
Si pudiera ser tu hroe
G          D       C
Si pudiera ser tu Dios
G          D       C
Que salvarte a ti mil veces
G      C         D
Puede ser mi salvación

G                       Em
Si supieras la locura que tengo
C                          D
Que me hiere y me mata por dentro
       G                Em
y que mas da, mira que al final
       C        D       G
Lo que importa es que te quiero


Coro:

G          D       C
Si pudiera ser tu hroe
G          D       C
Si pudiera ser tu Dios
G          D       C
Que salvarte a ti mil veces
G      D         C
Puede ser mi salvación


1ra guitarra
e-------------------------------------------------------
B-------------------------------------------------------
G-------------------------------------------------------
D---5-5-5-7/9---7/9-9-9--9.7-5--------------------------
A--------------------------------5-5.7--5/7-5-----------
E-------------------------------------------------------


e-------------------------------------------------------
B---------7--------------7-----55/7-8-7-----------------
G---7-7-7---7----5/7-7-7---7-----------7-3--------------
D------------------------------------------7---7/9/7-5--
A-------------------------------------------------------
E-------------------------------------------------------


 G        Em
haaa, djame tocarte

C          D
Quiero acariciarte

G
Una vez más

Em
Mira que al final
          C       D     G
Lo que importa es que te quiero

G          D       C
Si pudiera ser tu hroe
G          D       C
Si pudiera ser tu dios
G          D       C
Que salvarte a ti mil veces
G      D         C
Puede ser mi salvación

 G      D       C
Quiero ser tu hroe
 G      D       C
Si pudiera ser tu dios

 G      D        C
Por que salvarte a ti mil veces

G       D        C
Puede ser mi salvación
G       D        C
Puede ser mi salvación
G       D      C
Quiero ser tu hroe


una versión mejorada con su tab del solo

TAB AND LYRICS COMMENTS:

There is no comments for the quiero ser tu héroe chords sheet music yet. Please post one now!

© 2019 TabCrawler Online Guitar Tab and Music Lessons Archive