Corb Lund Cows Around Acoustic chords

ionicons-v5-k ionicons-v5-j
a b c d e f g h i j k l m n o p q r s t u v w x y z 0-9
 
TabCrawler.ComC / Corb Lund / Cows Around Acoustic log in ] [ register ]
TABCRAWLER Online Sheet Music & Lyrics Archive Member Votes: 0 / 5(0 votes)
TAB VIEWS for cows around acoustic chords: 131

To to be able to download PDF tabs, rate, comment & submit guitar tabs, bass tabs, keyboard tab, lyrics and drum tab files you must LOGIN TO TABCRAWLER Online Guitar Tabs & Guitar Pro, Bass Tab, Drum Tabs Archive MEMBERS ONLY AREA.
[PRINT]
Did this chords for cows around acoustic help you?
You must LOGIN to rate this chords.
Help us improve the tab & lyrics archive!

Cows Around Acoustic by Corb Lund

Great song, hope you have fun with it.



Intro/Solo:
e|-13-12-13-12-10----------------------------|-------------------------------|
B|----------------13-11-10-------10-10----10-|10-10----------------10--------|
G|-------------------------12-10-------12----|------12-10----10-12----12-----|
D|-------------------------------------------|------------12-------------12--|
A|-------------------------------------------|-------------------------------|
E|-------------------------------------------|-------------------------------|

e|-------------------10----10-13-13-12-12-10-|----10-13-10-------------------|
B|-------10-13-10-13----13-------------------|-13----------13-10-13-10-------|
G|-10-12-------------------------------------|-------------------------12-10-|
D|-------------------------------------------|-------------------------------|
A|-------------------------------------------|-------------------------------|
E|-------------------------------------------|-------------------------------|

e|---------5-|
B|---------6-|
G|---------5-|
D|-10-7-5--7-|
A|---------8-|
E|---------8-|


--Capo on 5th Fret--


Chorus:
        C/G     E7      Am      D7      C/G     A7      Dm      G       C/G
e-      0       0       0       2       0       0       1       3       0
B-      1       0       1       1       1       2       3       3       1
G-      0       1       2       2       0       0       2       0       0
D-      2       0       2       0       2       2       0       0       2
A-      3       2       0       0       3       0       0       2       3
E-      3       0       x       0       3       0       0       3       3


Walk To Verse:
e|---------------|
B|---------------|
G|---------------|
D|-----------0---|
A|-3-2-1-0-------|
E|-------------2-|


Verse:
        C(Walk) D       G       C/G     C7      G       D7      G
e-      0       2       3       0       3       3       5       3
B-      1       3       3       1       5       3       7       3
G-      0       2       0       0       3       0       5       0
D-      2       0       0       2       5       0       7       0
A-      3       0       2       3       3       2       5       2
E-      0       x       3       0       3       3       5       3


Base Walk for C:
e|-------------------------|
B|-------------------------|
G|-------------------------|
D|-------------------------|
A|-------------------------|
E|-3-0-1-2-3-0-1-2-3-0-1-2-|


Walk to Chorus:
e|---------|
B|---------|
G|---------|
D|---------|
A|---0-2-3-|
E|-3-------|


Bridge:
        C/G     Am      C/G     Am      C/G     D7      G
e-      0       0       0       0       0       2       3
B-      1       1       1       1       1       1       3
G-      0       2       0       2       0       2       0
D-      2       2       2       2       2       0       0
A-      3       0       3       0       3       0       2
E-      3       x       3       x       3       x       3



Chorus:
C/G                                 E7
Well everything is better with some cows around
Am                      D7
Livin in town sometimes brings me down
        C/G                                   A7
Let me bestow this western blessing share what I have found
        Dm           G    C/G
May you always have cows around


Verse:
C                                   D
What else you gonna spend that extra money on
                                 G
What else is gonna get you up hours before dawn
                                C/G            C7
What else is gonna keep toiling on and on and on
    G               D7   G
May you always have cows around


Bridge:
C/G
(What kinda cows Corb?)
        Am
Well there's Hereford, Highland, Simmental, Welsh Black and Maine-Anjou,
        C/G
Chianina, Limousine, Shorthorn, Charolais, Watusi too,
        Am      
Texas Long Horn, Kuri, any Roan, Ankole,
        C/G                                             D7        G
Galloway, Red Angus, Brahma, Brangus, Jersey, Guernsey, Holstein, Hey!

TAB AND LYRICS COMMENTS:

There is no comments for the cows around acoustic chords sheet music yet. Please post one now!

© 2020 TabCrawler Online Guitar Tab and Music Lessons Archive