Attack In Black If All I Thought Were True (ver 4) chords

 
TabCrawler.ComA / Attack In Black / If All I Thought Were True (ver 4) log in ] [ register ]
TABCRAWLER Online Sheet Music & Lyrics Archive Member Votes: 0 / 5(0 votes)
TAB VIEWS for if all i thought were true (ver 4) chords: 24

To to be able to download PDF tabs, rate, comment & submit guitar tabs, bass tabs, keyboard tab, lyrics and drum tab files you must LOGIN TO TABCRAWLER Online Guitar Tabs & Guitar Pro, Bass Tab, Drum Tabs Archive MEMBERS ONLY AREA.
[PRINT]
Did this chords for if all i thought were true (ver 4) help you?
You must LOGIN to rate this chords.
Help us improve the tab & lyrics archive!

If All I Thought Were True (ver 4) by Attack In Black

Attack in Black - If All I Thought Were True 
Chords/Tab

By Nathan Wisla

I tabbed what I could distinctly hear, but there are more subtleties to it than this.
Capo 3rd fret so you can easily do pull offs in the chords 

If you are playing the chords, ignore the chords above the tab parts, and if you are playing the tab parts,
ignore the chords above the lyrics.
///////////////////////////////////////////////////////////////////////////////////////////////////////////

Capo 3rd fret

Intro Chords: C - G - D - C - G - D (x3) 

Intro Riff
   Cmaj7                  G                   Cmaj7                       G           D      
|-------------------------------------------------------------------------------0-----2--------------|
|-0-----------------------------0------------------------------------------------3----3--------------|
|-------2-----0---------0-------------2---------------------0-------------------------2--------------|
|-------------------0h2---------------------0-2---------0h2-------0h2p0---0-----------0--------------|
|-3---3---3---3---3-------2---2---2---2---2---3---3---3---3---3---3-------2---2---2---0---0---2---3--|
|----------------------------------------------------------------------------------------------------|

 C - G - D (x2)

Verse 1
C                       G        D        C       G     D
if priests and princes' hollowed shadowed souls
C                 G      D       C     G      D
if devils are but angels cast to know
C              G      D       C     G    D
i live forever with a sharp regret
C                 G       D      Am    Em         C
it might be a surprise to know i never wished for death


Pre-chorus (play tabs over top if you have a second guitar)
  D           Cmaj7                   G
|-2-----------3-----------0-------------0---------| x3
|-------3-----------0-----------3-----3-------3---|
|-------------------------------------------------|
|-0---0---0---2---2---2---------------------------|
|-------------------------3---3---3---2---2---2---|
|-------------------------------------------------|
  D           Cmaj7                   G
|-2-----------3-----------0--------------------------|
|-------3-----------0-----------3-----3h5-(let ring)-| 
|----------------------------------------------------|
|-0---0---0---2---2---2------------------------------|
|-------------------------3---3---3---2--------------|
|----------------------------------------------------|

D         G      C        G   D  G  C
a hint of misery made its way alo---ng
D               G     C         G     D  G  C (let ring)
to those who've never harmed or never wronged


Chorus
           C
if honesty changed the hearts of men
             G
who could contend?
D        G            C 
if all i thought were true
   (G)          D         G     C
in this great divide that is my life
          D        G   Am   
i fear to think of all i'd undo
   Em    D            Cmaj7
if all i thought were true...


Bridge 1
Cmaj7 - G - D - C - G - D
C - G - D - C - G - D

Verse 2 (/ = mute by slapping the guitar)
C    /      G          D     C       /       G     D
even my own eyes would never care to know
C            /      G          D        C     /     G     D
what deep inside ourselves our hearts behold
C        /           G         D       C       /   G     D
a sky in shards, our world's unraveled parts
C        /    G        D      Am    Em     C (let ring)
impossible to piece as one in our unending dark 


Chorus
           C
if honesty changed the hearts of men
             G
who could contend?
D        G            C 
if all i thought were true
   (G)          D         G     C
in this great divide that is my life
          D        G   Am   
i fear to think of all i'd undo
   Em    D            D*
if all i thought were true...

          D     Dsus4      D5
        |-2---------3---------5--------|
D*      |-3---------3---------3--------|
        |-2---------2---------2--------|
        |------------------------------|
        |------------------------------|

Bridge 2
G - C - G - C - G - C - G - C

End
  D           Cmaj7                   G
|-2-----------3-----------0-------------0---------| x3
|-------3-----------0-----------3-----3-------3---|
|-------------------------------------------------|
|-0---0---0---2---2---2---------------------------|
|-------------------------3---3---3---2---2---2---|
|-------------------------------------------------|
  D           Cmaj7                   G
|-2-----------3-----------0--------------------------|
|-------3-----------0-----------3-----3/5-(let ring)-| 
|----------------------------------------------------|
|-0---0---0---2---2---2------------------------------|
|-------------------------3---3---3---2--------------|
|----------------------------------------------------|

D         G      C        G   D  G  C
a hint of misery made its way alo---ng
D               G     C         G     D  G  C (let ring)
to those who've never harmed or never wronged

TAB AND LYRICS COMMENTS:

There is no comments for the if all i thought were true (ver 4) chords sheet music yet. Please post one now!

© 2019 TabCrawler Online Guitar Tab and Music Lessons Archive