Alesana Hidden Track Dancing Alone chords

ionicons-v5-k ionicons-v5-j
a b c d e f g h i j k l m n o p q r s t u v w x y z 0-9
 
TabCrawler.ComA / Alesana / Hidden Track Dancing Alone log in ] [ register ]
TABCRAWLER Online Sheet Music & Lyrics Archive Member Votes: 0 / 5(0 votes)
TAB VIEWS for hidden track dancing alone chords: 36

To to be able to download PDF tabs, rate, comment & submit guitar tabs, bass tabs, keyboard tab, lyrics and drum tab files you must LOGIN TO TABCRAWLER Online Guitar Tabs & Guitar Pro, Bass Tab, Drum Tabs Archive MEMBERS ONLY AREA.
[PRINT]
Did this chords for hidden track dancing alone help you?
You must LOGIN to rate this chords.
Help us improve the tab & lyrics archive!

Hidden Track Dancing Alone by Alesana

---------------------------------------------------------------------------
              Alesana – Hidden Track (Dancing Alone)
---------------------------------------------------------------------------
Tabbed by: maguri
Tuning: Standard

Alesana
Hidden Track (Dancing Alone) (2014)

From: "The Decade - EP"

There is actually a little more going on in the piano pattern, which might
affect the chords (see the tab for the intro). But as a basic orientation, 
the regular shapes wil do. 

---------------------------------------------------------------------------

capo: 1st fret
play: D
key: Eb

---------------------------------------------------------------------------

INTRO / INTERLUDE / CODA
  D           A7/C#        Gmaj7/B
  1 + 2 + 3 + 4 + 5 + 6 +  1 + 2 + 3 + 4 + 5 + 6 +  
e|--------------------3---|2---------------5---7---|
B|--------3---------------|--------3---------------|
G|----2-----------2-------|----0-------------------|
D|0-----------------------|------------------------|
A|------------4-----------|2-----------------------|
E|------------------------|------------------------|
  Gadd9                    A
  1 + 2 + 3 + 4 + 5 + 6 +  1 + 2 + 3 + 4 + 5 + 6 +  
e|5---------------5---7---|0---------------3---5---|
B|--------0---------------|--------2---------------|
G|----0-------------------|----2-------------------|
D|------------------------|------------------------|
A|------------------------|0-----------------------|
E|3-----------------------|------------------------|
  D           A7/C#        Gmaj7/B
  1 + 2 + 3 + 4 + 5 + 6 +  1 + 2 + 3 + 4 + 5 + 6 +  
e|3---2---------------3---|2---------------5---7---|
B|--------3---------------|--------3---------------|
G|----------------2-------|----0-------------------|
D|0-----------------------|------------------------|
A|------------4-----------|2-----------------------|
E|------------------------|------------------------|
  Gadd9                    A
  1 + 2 + 3 + 4 + 5 + 6 +  1 + 2 + 3 + 4 + 5 + 6 +  
e|5---------------5---7---|0---------------0---2---|
B|--------0---------------|--------2---------------|
G|----0-------------------|----2-------------------|
D|------------------------|------------------------|
A|------------------------|0-----------------------|
E|3-----------------------|------------------------|


---------------------------------------------------------------------------
CHORDS

          E-A-D-G-B-e
A/C#      x-4-2-2-2-0
G/B       x-2-0-0-3-3

---------------------------------------------------------------------------

INTRO
| D A/C# | G/B | G | A | 
| D A/C# | G/B | G | A | 


VERSE
D                         G
  Dear love, I'm honestly scared
              Bm
Your voice is everywhere
        A
Are you there?
    D                  G
Oh, I am not ready for this
                 Bm                     A
There's so much about you, love that I miss


BRIDGE
G      A             Bm
Do you know that I'm lost?
        G       A          F#
And you left me here on my own


CHORUS
G          A          D  A/C#  Bm 
Songs live on but I'm dancing alone
G           A    D
Where is my lullaby?


INTERLUDE
| D A/C# | G/B | G | A | 


VERSE
D                         G
Sometimes I forget you're gone
             Bm                 A
You're all I have, known for so long


BRIDGE
G      A             Bm
Do you know that I'm lost?
        G       A          F#
And you left me here on my own


CHORUS
G          A          D  A/C#  Bm 
Songs live on but I'm dancing alone
G           A    D
Where is my lullaby?


INTERLUDE (with counter melody
D         A/C#     G/B
 It seems so unfair that the sun still shines
(I'll never let go love but tonight I am saying goodbye)
G                           A
 That the waves still crash, that the wind still blows
(I'm closing my eyes)
D       A/C#       G/B
 I will carry this, what choice do I have?
(I'll never let go love but tonight I am saying goodbye)
G                      A
 But without your laugh smiles are meaningless
(I'm closing my eyes)


D         A/C#     G/B
 It seems so unfair that the sun still shines
(I'll never let go love but tonight I am saying goodbye)
G                           A
 That the waves still crash, that the wind still blows
(I'm closing my eyes)
D       A/C#       G/B
 I will carry this, what choice do I have?
(I'll never let go love but tonight I am saying goodbye)
G                      A
 But without your laugh smiles are meaningless
(I'm closing my eyes)




BRIDGE
G      A             Bm
Do you know that I'm lost?
        G       A          F#
And you left me here on my own


CHORUS (+ coda)
G          A          D  A/C#  Bm 
Songs live on but I'm dancing alone
G          A        G            A       D
My hand is lost without yours to hold in mine

| D A/C# | G/B |

      G            A       D
And tonight I will say goodbye


TAB AND LYRICS COMMENTS:

There is no comments for the hidden track dancing alone chords sheet music yet. Please post one now!

© 2020 TabCrawler Online Guitar Tab and Music Lessons Archive