The Coral Sea Where Is My Mind chords

ionicons-v5-k ionicons-v5-j
a b c d e f g h i j k l m n o p q r s t u v w x y z 0-9
 
TabCrawler.ComT / The Coral Sea / Where Is My Mind log in ] [ register ]
TABCRAWLER Online Sheet Music & Lyrics Archive Member Votes: 0 / 5(0 votes)
TAB VIEWS for where is my mind chords: 21

To to be able to download PDF tabs, rate, comment & submit guitar tabs, bass tabs, keyboard tab, lyrics and drum tab files you must LOGIN TO TABCRAWLER Online Guitar Tabs & Guitar Pro, Bass Tab, Drum Tabs Archive MEMBERS ONLY AREA.
[PRINT]
Did this chords for where is my mind help you?
You must LOGIN to rate this chords.
Help us improve the tab & lyrics archive!

Where Is My Mind by The Coral Sea

The Coral Sea - Where is My Mind (The Pixies cover from Californication season 7 soundtrack) 
INTRO
 
A  F#m  C#  D (4x)   ( u can use C#7 and D7 chords instead of C# D)
     
VERSE 1
           A                        F#m               C#  D
 With your feet in the air and your head on the ground
A                F#m            C#       D         
 Try this trick and spin it, yeah
A                  F#m
 Your head will collapse
            C#
But there's nothing in it 
           D
And you'll ask yourself

CHORUS

A            F#m 
 Where is my mind?
C#           D
 Where is my mind?  
     A       F#m   C#  D       
 Where is my mind?
 A        C#       D             Dm        F#m   E   E7
  Way out in the water, see it swimming.
Lead
E|-------------|------------|-------------|------------|
B|----2---2----|----2---2---|----2---2----|------------|
G|--2---2------|--2---2-----|--1---1------|-2-2p1-2-2p1|
D|-------------|------------|-------------|------------| 
A|-------------|------------|-------------|------------|
E|-------------|------------|-------------|------------|
                                                        or
E|-------------|------------|-------------|------------|
B|-------------|------------|-------------|------------|
G|----6----6---|----6----6--|----6----6---|------------|
D|--7----7-----|--7----7----|--6----6-----|-7-7p6-7-7p6| 
A|-------------|------------|-------------|------------|
E|-------------|------------|-------------|------------|

VERSE 2 - (A  F#m  C#  D) 

I was swimmin' in the Carribean
Animals were hiding behind the rock
Except the little fish
But they told me, he swears
Tryin' to talk to me, to me, to me

CHORUS 
  
Lead
CHORUS

TAB AND LYRICS COMMENTS:

There is no comments for the where is my mind chords sheet music yet. Please post one now!

© 2020 TabCrawler Online Guitar Tab and Music Lessons Archive