Waterboys Glastonbury Song (ver 2) chords

ionicons-v5-k ionicons-v5-j
a b c d e f g h i j k l m n o p q r s t u v w x y z 0-9
 
TabCrawler.ComW / Waterboys / Glastonbury Song (ver 2) log in ] [ register ]
TABCRAWLER Online Sheet Music & Lyrics Archive Member Votes: 0 / 5(0 votes)
TAB VIEWS for glastonbury song (ver 2) chords: 61

To to be able to download PDF tabs, rate, comment & submit guitar tabs, bass tabs, keyboard tab, lyrics and drum tab files you must LOGIN TO TABCRAWLER Online Guitar Tabs & Guitar Pro, Bass Tab, Drum Tabs Archive MEMBERS ONLY AREA.
[PRINT]
Did this chords for glastonbury song (ver 2) help you?
You must LOGIN to rate this chords.
Help us improve the tab & lyrics archive!

Glastonbury Song (ver 2) by Waterboys

                                          Artist - Waterboys
                                         ********************
                                       Song - Glastonbury Song  
                                      *************************
                                    Album - The Whole Of The Moon 
                                   *******************************
                                        Tabbed By - Ayreon77
                                       **********************



INTRO
******
F#m A E X2

F#m A D G D F#m D G D F#m

---------------------------------------------------
VERSE 1
********
C#m                       A
I dreamed myself from the sultry plains
    E                        B
The old green square back in old Maybole
C#m                 F#m
Rode the wind up to Stornaway
E                       G#m
Paused at the peak, pacified my soul
C#m                   F#m
Caught the bus at the ferry fort
E                      G#m
Made it to the mansion on the Boyne
      C#m                A
See I come around to the ancient ways
E                     B
I took a tip from the buddha boy


---------------------------------------------------
CHORUS
*******
F#m               A             E
I just found God (I just found) God yeah
F#m               A             E
I just found God (I just found) God yeah
F#m                    A             
I just found God where he always was


---------------------------------------------------
VERSE 2
********
C#m                   A
We came down from the hill of dreams
E                            B
Bernadette, mother earth and you and me
C#m                        F#m
Through Carraroe, down the wildwood side
E                        G#m
Blinding out eyes in the shallow seas
C#m                 A
Drank fire with the King of the Blues
E                 B
Plugged in to the medicine way
       C#m               F#m
Took a long last look at Crazy Horse
E              B
Push now for a golden age


---------------------------------------------------
CHORUS
*******
---------------------------------------------------
VERSE 3
********
C#m                   A
I found myself on the roof of the world
E                   B  
Just waiting for to get my wings
C#m                  A
Strange angel in the changing light
E                B
Said Brother you forgot something
C#m                    F#m
My heart beat from the inside out
E                B   
so lucky just to be alive Can you 
C#m           F#m
tell what I'm talking about
E               B
Any day now the sun's gonna rise


---------------------------------------------------
CHORUS
*******
---------------------------------------------------
E
Hey
F#m                    A             
I just found God where he always was
F#m                    A             
I just found God where he always was


Break
D G D A X2


C#m                   A         E                    B
There is a green hill far away, I'm going back there one fine day  X4
 

C#m A E B
One Fine Day X4


---------------------------------------------------
03:03
SOLO
*****
|------------------|-12---12---12---12---12--10-----10-----10-----10---10-10|
|------------9---12|----------------------------12-----12-----12-----12-----|
|------9-----------|--------------------------------------------------------|
|-11-----11--------|--------------------------------------------------------|
|------------------|--------------------------------------------------------|
|------------------|--------------------------------------------------------|


e|-10----10------------------------10--------------|----------------------|
B|----12----12-9-10-12-9-10-12--12----12-10-9-10-9-|-10-9-------------h---|
G|-------------------------------------------------|------11-9-11-9--9-11-|
D|-------------------------------------------------|----------------------|
A|-------------------------------------------------|----------------------|
E|-------------------------------------------------|----------------------|

                                                   fade out..............
e|------------------------------------------------------------------------|
B|------------------------------------------------------------------------|
G|-9-999--999--999--999--999--999--999--999--999--999--999--999--999--999-|
D|------------------------------------------------------------------------|
A|------------------------------------------------------------------------|
E|------------------------------------------------------------------------|



ENJOY..........

TAB AND LYRICS COMMENTS:

There is no comments for the glastonbury song (ver 2) chords sheet music yet. Please post one now!

© 2020 TabCrawler Online Guitar Tab and Music Lessons Archive