Misc Unsigned Bands Dodie Clark - Social Dance (ver 2) Ukulele chords

 
TabCrawler.ComM / Misc Unsigned Bands / Dodie Clark - Social Dance (ver 2) Ukulele log in ] [ register ]
TABCRAWLER Online Sheet Music & Lyrics Archive Member Votes: 0 / 5(0 votes)
TAB VIEWS for dodie clark - social dance (ver 2) ukulele chords: 20

To to be able to download PDF tabs, rate, comment & submit guitar tabs, bass tabs, keyboard tab, lyrics and drum tab files you must LOGIN TO TABCRAWLER Online Guitar Tabs & Guitar Pro, Bass Tab, Drum Tabs Archive MEMBERS ONLY AREA.
[PRINT]
Did this chords for dodie clark - social dance (ver 2) ukulele help you?
You must LOGIN to rate this chords.
Help us improve the tab & lyrics archive!

Dodie Clark - Social Dance (ver 2) Ukulele by Misc Unsigned Bands

E|-33--33--33--33--33--33--33--33--33--33--33--33-|
A|-33--33--33--33--33--33--33--33--33--33--33--33-|
C|0---0---0---0---0---0---0---0---0---0---0---0---|
G|------------------------------------------------|
                                There are some who don't even need to try

E|-11-11-11-11-|
A|-11-11-11-11-|
C|0--0--0--0---|
G|-------------|
Born with a warm heart a twinkle in their eye

E|-33--33--33--33-|
A|-33--33--33--33-|
C|0---0---0---0---|
G|----------------|
Glitter in their words, perfume in their breathe

E|-11-11--|
A|-11-11--|
C|0--0--0-|
G|--------|
Souls of sunshine and lilac pastel skies

E|-33--33--33--33-|
A|-33--33--33--33-|
C|0---0---0---0---|
G|----------------|
You will find no such shimmering in here

E|-11-11-11-11-|
A|-11-11-11-11-|
C|0--0--0--0---|
G|-------------|
Oh, there's a wish for some that's shovelled down by fear

E|-33--33--33--33-|
A|-33--33--33--33-|
C|0---0---0---0---|
G|----------------|
Am I happy or just hopeful? Confident or boastful?

E|-11-11--|
A|-11-11--|
C|0--0--0-|
G|--------|
Do people smile holding back a sneer?

E|-----00-00-33-33-33-33-33-33-|
A|-----11-11-11-11-33-33-33-33-|
C|----0--0--0--0--0--0--0--0---|
G|-----------------------------|
Sometimes I wish that I could be, a kinder better me for all

E|-00-00-33-33-33-33-33-33-|
A|-11-11-11-11-33-33-33-33-|
C|0--0--0--0--0--0--0--0---|
G|-------------------------|
Sometimes I wish that I could be, someone who isn't me at all

E|-33--33--33--33--33--33--33--33--33--33--33--33-|
A|-33--33--33--33--33--33--33--33--33--33--33--33-|
C|0---0---0---0---0---0---0---0---0---0---0---0---|
G|------------------------------------------------|
                                So off you go perform your social dance

E|-11-11-11-11-|
A|-11-11-11-11-|
C|0--0--0--0---|
G|-------------|
Outstretched opinions and a flexible stance

E|-33--33--33--33-|
A|-33--33--33--33-|
C|0---0---0---0---|
G|----------------|
Pirouette for show, but never let them know

E|-11-11--|
A|-11-11--|
C|0--0--0-|
G|--------|
That really you're just begging for a chance

E|-----00-00-33-33-33-33-33-33-|
A|-----11-11-11-11-33-33-33-33-|
C|----0--0--0--0--0--0--0--0---|
G|-----------------------------|
Sometimes I wish that I could be, a kinder better me for all

E|-00-00-33-33-33-33-33-33-|
A|-11-11-11-11-33-33-33-33-|
C|0--0--0--0--0--0--0--0---|
G|-------------------------|
Sometimes I wish that I could be, someone who isn't me at all

E|-33--33--33--33--33--33--33--33--33--33--33--33-|
A|-33--33--33--33--33--33--33--33--33--33--33--33-|
C|0---0---0---0---0---0---0---0---0---0---0---0---|
G|------------------------------------------------|
                                mmmmmmmmm..........

E|-11-11-11-11-|
A|-11-11-11-11-|
C|0--0--0--0---|
G|-------------|
mmmmmmmm.......

E|-33--33--33--33-|
A|-33--33--33--33-|
C|0---0---0---0---|
G|----------------|
mmmmmmmm.......

E|-11-11---|
A|-11-11---|
C|0--0--0--|
G|---------|
mmmmmmmm.......

E|-33--33--33--33-|
A|-33--33--33--33-|
C|0---0---0---0---|
G|----------------|
Can someone please tell me how it feels

E|-11-11-11-11-|
A|-11-11-11-11-|
C|0--0--0--0---|
G|-------------|
To say the perfect words a model of appeal

E|-33--33--33--33-|
A|-33--33--33--33-|
C|0---0---0---0---|
G|----------------|
Should I spill secrets inside or should i just hide?

E|-11-11---|
A|-11-11---|
C|0--0--0--|
G|---------|
I'll never be okay to reveal

E|-----00-00-33-33-33-33-33-33-|
A|-----11-11-11-11-33-33-33-33-|
C|----0--0--0--0--0--0--0--0---|
G|-----------------------------|
Sometimes I wish that I could be, a kinder better me for all

E|-00-00-33-33-33-33-33-33-|
A|-11-11-11-11-33-33-33-33-|
C|0--0--0--0--0--0--0--0---|
G|-------------------------|
Sometimes I wish that I could be, someone who isn't me at all

E|-33--33--33--33--33--33--33--33-|
A|-33--33--33--33--33--33--33--33-|
C|0---0---0---0---0---0---0---0---|
G|--------------------------------|



*Dodie plays the rhythm slightly differently in the chorus in the video, but I couldn't 
figure out how to write it, so this is the best I can dooo. Hope it's right and hope you 
like it :)

TAB AND LYRICS COMMENTS:

There is no comments for the dodie clark - social dance (ver 2) ukulele chords sheet music yet. Please post one now!

© 2019 TabCrawler Online Guitar Tab and Music Lessons Archive