The Academy Is About A Girl Acoustic chords

 
TabCrawler.ComT / The Academy Is / About A Girl Acoustic log in ] [ register ]
TABCRAWLER Online Sheet Music & Lyrics Archive Member Votes: 0 / 5(0 votes)
TAB VIEWS for about a girl acoustic chords: 28

To to be able to download PDF tabs, rate, comment & submit guitar tabs, bass tabs, keyboard tab, lyrics and drum tab files you must LOGIN TO TABCRAWLER Online Guitar Tabs & Guitar Pro, Bass Tab, Drum Tabs Archive MEMBERS ONLY AREA.
[PRINT]
Did this chords for about a girl acoustic help you?
You must LOGIN to rate this chords.
Help us improve the tab & lyrics archive!

About A Girl Acoustic by The Academy Is

NOTES USED IN THIS SONG
D   DM#J    E    C#m   F#m   A  DM#J  D      Em
-------------------4-----2----0----------------|
-------------2-----4-----4----0--------------2-|
-------------2-----6-----4----2----0---------2-|
-2-----2-----0-----6-----2----2----2----2----1-|
-3-----2-----0-----5-----2----2----2----3------|
-2-----2-----0-----4-----2----0----2----2------|

INTRO

(X5) (X2)  (x6)   (x2)  (x2) (x4)(x5) (X3)
 D   DM#J    E    C#m   F#m   A  DM#J  D
-------------------4-----2----0-----------|
-------------2-----4-----4----0-----------|
-------------2-----6-----4----2----0------|
-2-----2-----0-----6-----2----2----2----2-|
-3-----2-----0-----5-----2----2----2----3-|
-2-----2-----0-----4-----2----0----2----2-|

 D               E
One song about a girl
      C#m               F#m
Can't breathe when I'm around her
   D           E
I wait here everyday
   C#m7                    F#m7
In case she'll scratch the surface
             D              E
She'll never notice

 D             AT AIR (EN EL AIRE)
------        ------------|
------        ------------|
------        ------------|
------        ------------|
-2---2(X4)    -X---X(X2)--|
-3--3-        -X--X-----X-|
-2-2--        -X-X-----X--|

    A
I'm not in love
        F#m7
This is not my heart
    D                       E
I'm not gonna waste these words
         A     D     Em
About a girl

 D   DM#J    E    C#m   F#m   A  DM#J  D


D                      E
Last night I knew what to say
    C                   F#m
But you weren't there to hear it
      D               E
These lines so well rehearsed
       C#m          F#m
Tongue-tied, and overloaded
          D              E
You never notice

D             AT AIR (EN EL AIRE)
------        ------------|
------        ------------|
------        ------------|
------        ------------|
-2---2(X4)    -X---X(X2)--|
-3--3-        -X--X-----X-|
-2-2--        -X-X-----X--|


 A
I'm not in love
        F#m7
This is not my heart
    D                       E
I'm not gonna waste these words
         A
About A girl  D     Em (x2)


  D                   E
To be loved, to be loved, what more could you ask for?
      F#m7                A
To be loved, to be loved, everyone wants to be
      D                   E
Loved, to be loved , what more could you ask for?
      F#m                 A
To be loved, to be loved, everyone


 A                                     ------|
I'm not in love                        ------|        4 times at A and F#m
        F#m                            ------|         2 times at D and E.
This is not my heart                   -x---x (x4)
    D                       E          -x--x-
I'm not gonna waste these words...     -x-x--


   A
I'm not in love
        F#m
This is not my heart
    D                       E
I'm not gonna waste these words (X2)

TAB AND LYRICS COMMENTS:

There is no comments for the about a girl acoustic chords sheet music yet. Please post one now!

© 2019 TabCrawler Online Guitar Tab and Music Lessons Archive