The Growlers Not The Man

TabCrawler.ComT / The Growlers / Not The Man log in ] [ register ]
TABCRAWLER Online Sheet Music & Lyrics Archive Member Votes: 0 / 5(0 votes)
TAB VIEWS for not the man chords: 52

To to be able to download PDF tabs, rate, comment & submit guitar tabs, bass tabs, keyboard tab, lyrics and drum tab files you must LOGIN TO TABCRAWLER Online Guitar Tabs & Guitar Pro, Bass Tab, Drum Tabs Archive MEMBERS ONLY AREA.
[PRINT]
Did this chords for not the man help you?
You must LOGIN to rate this chords.
Help us improve the tab & lyrics archive!

Not The Man by The Growlers

The Growlers - Not The Man
song: http://www.youtube.com/watch?v=XPpiCqUv8q0

INTRO (MAIN RIFF)
   Bm                            Amaj7
e|-------9------9------12p9---------9----9----9------|
B|---10-----10-----10------10-----9----9----9----9---|
G|-11--11-----11-----11------11--9-9----9----9----9--|
D|---------------------------------------------------|
A|---------------------------------------------------|
E|---------------------------------------------------|

VERSE 1
Bm                                    Amaj7
Can I ever get tired of asking for things
Well everybody else does
Bm                         Amaj7
 I’m not the only one suffering
But I wish I was
Bm                              Amaj7
 All they want is a pat on the back
For putting up with me for so long
Bm                    Amaj7
 So many imaginary reasons
                       G#    F#m
For treating everybody so wrong

PRE-CHORUS
E                  F#m
Stringing them along
             E         
Could I have been more wrong

CHORUS
B        G              E         A
 When my friends are no longer around
     C          D
Reality won’t hold me
B          G       E        A
 All of my buddies feel run down
            C       D
I’m not the man I used to be

MAIN RIFF
Bm 
Amaj7

VERSE 2
Bm                              Amaj7
 Somebody please help me get a grip
Before it’s too late
Bm                                     Amaj7
 The smoke’s revealed a glimpse of the cliff
And the floor is slipping away
Bm                             Amaj7
 And I can’t blame it on the match
Doesn’t help to act tough
Bm                               Amaj7
 Cause there ain’t no reason to act
               G#       F#m
If I lose everybody I love

PRE-CHORUS
E                  F#m
Stringing them along
             E         
Could I have been more wrong

CHORUS
B        G              E         A
 When my friends are no longer around
     C          D
Reality won’t hold me
B          G       E        A
 All of my buddies feel run down
            C       D
I’m not the man I used to be

KEYBOARD SOLO
   G           F                 G             F
e|----------10-12-10-12-13-12-10---------5--7--8--7--8--10-8--10-|
B|-12----13----------------------13-12---6--8--10-8--10-12-10-12-|
G|---------------------------------------------------------------|
D|---------------------------------------------------------------|
A|---------------------------------------------------------------|
E|---------------------------------------------------------------|

   G             F                E7
e|-12--10--12-10-12-10------------------------10--12---|
B|---------------------13-12--13--10--12--13-----------|
G|-----------------------------------------------------|
D|-----------------------------------------------------|
A|-----------------------------------------------------|
E|-----------------------------------------------------|

MAIN RIFF
Bm     4x
Amaj7 /

CHORUS (2x)
B        G              E         A
 When my friends are no longer around
     C          D
Reality won’t hold me
B          G       E        A
 All of my buddies feel run down
            C       D      B
I’m not the man I used to be

TAB AND LYRICS COMMENTS:

There is no comments for the not the man chords sheet music yet. Please post one now!

© 2018 TabCrawler Online Guitar Tab and Music Lessons Archive