La Nueva Luna Me Vas A Extrañar

TabCrawler.ComL / La Nueva Luna / Me Vas A Extrañar log in ] [ register ]
TABCRAWLER Online Sheet Music & Lyrics Archive Member Votes: 0 / 5(0 votes)
TAB VIEWS for me vas a extrañar chords: 9

To to be able to download PDF tabs, rate, comment & submit guitar tabs, bass tabs, keyboard tab, lyrics and drum tab files you must LOGIN TO TABCRAWLER Online Guitar Tabs & Guitar Pro, Bass Tab, Drum Tabs Archive MEMBERS ONLY AREA.
[PRINT]
Did this chords for me vas a extrañar help you?
You must LOGIN to rate this chords.
Help us improve the tab & lyrics archive!

Me Vas A Extrañar by La Nueva Luna

intro:

1|-10-10--8---7---12--7--8--5------12-12-12-14-12-10--8--10----|
2|-12-12--10--8---13--8-10--7------13-13-13-15-13-12-10--12----|
3|-------------------------------------------------------------|
4|-------------------------------------------------------------|
5|-------------------------------------------------------------|
6|-------------------------------------------------------------|

1|-10-10--8---7---12--7--8--5-------12-12-10--8--10--8--7---------------|
2|-12-12--10--8---13--8-10--7-------13-13-12-10--12-10--8----------8----|
3|---------------------------------------------------------9-7-10-------|
4|---------------------------------------------------------------10-----|
5|----------------------------------------------------------------------|
6|----------------------------------------------------------------------|


(G - C - D - G) 


x2


G                      C       
Cuando escuches, esta canciooon
    D        C        G
pensaras, en mi, todavia
C                  G
vas a recordar, esos momeeentos
      D        C     D       G     D
donde yo, te ame, toda en secreto


####- estribillo -####
D         G
Me vas a extraniar a extraniar
             D
de noche no vas a dormir
           C                  D
me vas a nombrar, estes donde estes
            G      D
adonde tu vaaayas


           G
Me vas a extraniar a extraniar
              D
por todo el amor que te di
              C
si en cada rincon 
             D               G
hay algo de mi que vas a extraniar

####- estribillo -####


repite intro


Cuando mañana, te hablen de amooor

tu creeras, que soy yo, quien te habla

quien te hara llegar, hasta la luna

como yo, que te ame, como a ninguna


repite estribillo


Dedicado a CECILIA

AGUANTE LA NUEVA LUNA!!!
Cualquier duda, o para intercambiar tabs, al mail
--El MaGo--

TAB AND LYRICS COMMENTS:

There is no comments for the me vas a extrañar chords sheet music yet. Please post one now!

© 2015 TabCrawler Online Sheet Music Tablature Archive